  0
SECTION
  2
HEADER
  9
$ACADVER
  1
AC1009
  9
$INSBASE
 10
0.4999999999995852
 20
-0.0000000000000604
 30
0.0
  9
$EXTMIN
 10
0.2254096615974306
 20
-0.8284271247452804
 30
0.0
  9
$EXTMAX
 10
75.82842712474712
 20
58.8284271247471
 30
0.0
  9
$LIMMIN
 10
0.0
 20
0.0
  9
$LIMMAX
 10
410.0
 20
287.0
  9
$ORTHOMODE
 70
     0
  9
$REGENMODE
 70
     1
  9
$FILLMODE
 70
     1
  9
$QTEXTMODE
 70
     0
  9
$MIRRTEXT
 70
     1
  9
$DRAGMODE
 70
     2
  9
$LTSCALE
 40
25.0
  9
$OSMODE
 70
     0
  9
$ATTMODE
 70
     1
  9
$TEXTSIZE
 40
3.5
  9
$TRACEWID
 40
1.0
  9
$TEXTSTYLE
  7
STANDARD
  9
$CLAYER
  8
0
  9
$CELTYPE
  6
BYLAYER
  9
$CECOLOR
 62
   256
  9
$DIMSCALE
 40
1.0
  9
$DIMASZ
 40
3.5
  9
$DIMEXO
 40
0.1
  9
$DIMDLI
 40
7.0
  9
$DIMRND
 40
0.0
  9
$DIMDLE
 40
0.0
  9
$DIMEXE
 40
1.8
  9
$DIMTP
 40
0.0
  9
$DIMTM
 40
0.0
  9
$DIMTXT
 40
3.5
  9
$DIMCEN
 40
1.5
  9
$DIMTSZ
 40
0.0
  9
$DIMTOL
 70
     0
  9
$DIMLIM
 70
     0
  9
$DIMTIH
 70
     0
  9
$DIMTOH
 70
     0
  9
$DIMSE1
 70
     0
  9
$DIMSE2
 70
     0
  9
$DIMTAD
 70
     0
  9
$DIMZIN
 70
     0
  9
$DIMBLK
  1

  9
$DIMASO
 70
     1
  9
$DIMSHO
 70
     0
  9
$DIMPOST
  1

  9
$DIMAPOST
  1

  9
$DIMALT
 70
     0
  9
$DIMALTD
 70
     2
  9
$DIMALTF
 40
25.39999999999999
  9
$DIMLFAC
 40
1.0
  9
$DIMTOFL
 70
     0
  9
$DIMTVP
 40
0.0
  9
$DIMTIX
 70
     0
  9
$DIMSOXD
 70
     0
  9
$DIMSAH
 70
     0
  9
$DIMBLK1
  1

  9
$DIMBLK2
  1

  9
$DIMSTYLE
  2
*UNNAMED
  9
$DIMCLRD
 70
     0
  9
$DIMCLRE
 70
     0
  9
$DIMCLRT
 70
     0
  9
$DIMTFAC
 40
1.0
  9
$DIMGAP
 40
0.09
  9
$LUNITS
 70
     2
  9
$LUPREC
 70
     2
  9
$SKETCHINC
 40
1.0
  9
$FILLETRAD
 40
0.0
  9
$AUNITS
 70
     0
  9
$AUPREC
 70
     0
  9
$MENU
  1

  9
$ELEVATION
 40
0.0
  9
$PELEVATION
 40
0.0
  9
$THICKNESS
 40
0.0
  9
$LIMCHECK
 70
     0
  9
$BLIPMODE
 70
     1
  9
$CHAMFERA
 40
0.0
  9
$CHAMFERB
 40
0.0
  9
$SKPOLY
 70
     0
  9
$TDCREATE
 40
2448476.403650810
  9
$TDUPDATE
 40
2449393.436505671
  9
$TDINDWG
 40
0.0077233796
  9
$TDUSRTIMER
 40
0.0077233796
  9
$USRTIMER
 70
     1
  9
$ANGBASE
 50
0.0
  9
$ANGDIR
 70
     0
  9
$PDMODE
 70
     0
  9
$PDSIZE
 40
0.0
  9
$PLINEWID
 40
0.0
  9
$COORDS
 70
     2
  9
$SPLFRAME
 70
     0
  9
$SPLINETYPE
 70
     6
  9
$SPLINESEGS
 70
     8
  9
$ATTDIA
 70
     0
  9
$ATTREQ
 70
     1
  9
$HANDLING
 70
     1
  9
$HANDSEED
  5
72
  9
$SURFTAB1
 70
     6
  9
$SURFTAB2
 70
     6
  9
$SURFTYPE
 70
     6
  9
$SURFU
 70
     6
  9
$SURFV
 70
     6
  9
$UCSNAME
  2

  9
$UCSORG
 10
0.0
 20
0.0
 30
0.0
  9
$UCSXDIR
 10
1.0
 20
0.0
 30
0.0
  9
$UCSYDIR
 10
0.0
 20
1.0
 30
0.0
  9
$PUCSNAME
  2

  9
$PUCSORG
 10
0.0
 20
0.0
 30
0.0
  9
$PUCSXDIR
 10
1.0
 20
0.0
 30
0.0
  9
$PUCSYDIR
 10
0.0
 20
1.0
 30
0.0
  9
$USERI1
 70
     0
  9
$USERI2
 70
     0
  9
$USERI3
 70
     0
  9
$USERI4
 70
     0
  9
$USERI5
 70
     0
  9
$USERR1
 40
1.0
  9
$USERR2
 40
0.0
  9
$USERR3
 40
0.0
  9
$USERR4
 40
0.0
  9
$USERR5
 40
0.0
  9
$WORLDVIEW
 70
     1
  9
$SHADEDGE
 70
     3
  9
$SHADEDIF
 70
    70
  9
$TILEMODE
 70
     1
  9
$MAXACTVP
 70
    16
  9
$PINSBASE
 10
0.0
 20
0.0
 30
0.0
  9
$PLIMCHECK
 70
     0
  9
$PEXTMIN
 10
1.000000000000000E+20
 20
1.000000000000000E+20
 30
1.000000000000000E+20
  9
$PEXTMAX
 10
-1.000000000000000E+20
 20
-1.000000000000000E+20
 30
-1.000000000000000E+20
  9
$PLIMMIN
 10
0.0
 20
0.0
  9
$PLIMMAX
 10
12.0
 20
9.0
  9
$UNITMODE
 70
     0
  9
$VISRETAIN
 70
     0
  9
$PLINEGEN
 70
     0
  9
$PSLTSCALE
 70
     0
  9
$TREEDEPTH
 70
  3020
  9
$DWGCODEPAGE
  3
undefined
  0
ENDSEC
  0
SECTION
  2
TABLES
  0
TABLE
  2
VPORT
 70
     2
  0
VPORT
  2
*ACTIVE
 70
     0
 10
0.0
 20
0.0
 11
1.0
 21
1.0
 12
40.54096385542194
 22
31.38804370022508
 13
0.0
 23
0.0
 14
1.0
 24
1.0
 15
10.0
 25
10.0
 16
0.0
 26
0.0
 36
1.0
 17
0.0
 27
0.0
 37
0.0
 40
62.77608740045029
 41
1.275675675675675
 42
50.0
 43
0.0
 44
0.0
 50
0.0
 51
0.0
 71
     0
 72
 20000
 73
     1
 74
     1
 75
     0
 76
     0
 77
     0
 78
     0
  0
ENDTAB
  0
TABLE
  2
LTYPE
 70
     1
  0
LTYPE
  2
CONTINUOUS
 70
    64
  3
Ausgezogene Linie
 72
    65
 73
     0
 40
0.0
  0
ENDTAB
  0
TABLE
  2
LAYER
 70
     3
  0
LAYER
  2
0
 70
     0
 62
     7
  6
CONTINUOUS
  0
LAYER
  2
ITEM_50
 70
    64
 62
     7
  6
CONTINUOUS
  0
LAYER
  2
ITEM_HILFE
 70
    64
 62
     3
  6
CONTINUOUS
  0
ENDTAB
  0
TABLE
  2
STYLE
 70
     1
  0
STYLE
  2
STANDARD
 70
     0
 40
0.0
 41
1.0
 50
0.0
 71
     0
 42
3.5
  3
txt
  4

  0
ENDTAB
  0
TABLE
  2
VIEW
 70
     0
  0
ENDTAB
  0
TABLE
  2
UCS
 70
     0
  0
ENDTAB
  0
TABLE
  2
APPID
 70
     1
  0
APPID
  2
ACAD
 70
    64
  0
ENDTAB
  0
TABLE
  2
DIMSTYLE
 70
     0
  0
ENDTAB
  0
ENDSEC
  0
SECTION
  2
BLOCKS
  0
ENDSEC
  0
SECTION
  2
ENTITIES
  0
LINE
  8
ITEM_50
  5
49
 10
7.0
 20
-0.0000000000000071
 30
0.0
 11
5.5
 21
-0.0000000000000604
 31
0.0
  0
ARC
  8
ITEM_50
  5
4A
 10
5.5
 20
2.499999999999943
 30
0.0
 40
2.5
 50
180.0
 51
270.0000000000002
  0
ARC
  8
ITEM_50
  5
4B
 10
6.18646171823309
 20
36.81295377241417
 30
0.0
 40
6.0
 50
198.6044526551611
 51
237.921750878942
  0
LINE
  8
ITEM_50
  5
4C
 10
0.5000000000000284
 20
34.8987559960418
 30
0.0
 11
0.5000000000000284
 21
41.1012440039571
 31
0.0
  0
ARC
  8
ITEM_50
  5
4D
 10
6.18646171823309
 20
39.18704622758571
 30
0.0
 40
6.0
 50
122.0782491210581
 51
161.3955473448389
  0
LINE
  8
ITEM_50
  5
4E
 10
3.0
 20
2.499999999999939
 30
0.0
 11
3.0
 21
55.49999999999988
 31
0.0
  0
ARC
  8
ITEM_50
  5
4F
 10
5.500000000000028
 20
55.49999999999988
 30
0.0
 40
2.5
 50
90.0
 51
180.0
  0
LINE
  8
ITEM_50
  5
50
 10
5.5
 20
57.99999999999988
 30
0.0
 11
7.0
 21
57.99999999999988
 31
0.0
  0
LINE
  8
ITEM_50
  5
51
 10
7.0
 20
-0.0000000000000071
 30
0.0
 11
7.0
 21
57.99999999999988
 31
0.0
  0
LINE
  8
ITEM_50
  5
52
 10
71.00000000000093
 20
58.0000000000009
 30
0.0
 11
21.00000000000091
 21
58.0000000000009
 31
0.0
  0
ARC
  8
ITEM_50
  5
53
 10
21.00000000000093
 20
54.0000000000009
 30
0.0
 40
4.0
 50
90.0
 51
180.0
  0
LINE
  8
ITEM_50
  5
54
 10
17.00000000000091
 20
54.0000000000009
 30
0.0
 11
17.00000000000091
 21
4.000000000000909
 31
0.0
  0
ARC
  8
ITEM_50
  5
55
 10
21.00000000000093
 20
4.000000000000909
 30
0.0
 40
4.0
 50
180.0
 51
270.0
  0
LINE
  8
ITEM_50
  5
56
 10
21.00000000000091
 20
0.0000000000009095
 30
0.0
 11
23.50000000000108
 21
0.0000000000009095
 31
0.0
  0
ARC
  8
ITEM_50
  5
57
 10
71.00000000000093
 20
4.000000000000909
 30
0.0
 40
4.0
 50
270.0
 51
0.0
  0
LINE
  8
ITEM_50
  5
58
 10
75.00000000000093
 20
4.000000000000909
 30
0.0
 11
75.00000000000093
 21
54.0000000000009
 31
0.0
  0
ARC
  8
ITEM_50
  5
59
 10
71.00000000000093
 20
54.0000000000009
 30
0.0
 40
4.0
 50
0.0
 51
89.99999999999998
  0
CIRCLE
  8
ITEM_50
  5
5A
 10
55.00000000000093
 20
38.0000000000009
 30
0.0
 40
7.0
  0
CIRCLE
  8
ITEM_50
  5
5B
 10
33.00000000000093
 20
28.0000000000009
 30
0.0
 40
2.5
  0
LINE
  8
ITEM_50
  5
5C
 10
25.00000000000108
 20
1.500000000000909
 30
0.0
 11
25.00000000000108
 21
6.250002336016507
 31
0.0
  0
LINE
  8
ITEM_50
  5
5D
 10
45.00000000000093
 20
1.500000000000909
 30
0.0
 11
45.00000000000093
 21
6.250001907349656
 31
0.0
  0
LINE
  8
ITEM_50
  5
5E
 10
46.49999766398544
 20
0.0000000000009095
 30
0.0
 11
71.00000000000093
 21
0.0000000000009095
 31
0.0
  0
ARC
  8
ITEM_50
  5
5F
 10
23.5000000000011
 20
1.500000000000909
 30
0.0
 40
1.5
 50
269.9999999999997
 51
0.0
  0
ARC
  8
ITEM_50
  5
60
 10
46.50000000000093
 20
1.500000000000909
 30
0.0
 40
1.5
 50
179.9999999999998
 51
269.9999999999999
  0
LINE
  8
ITEM_50
  5
61
 10
41.32455532033785
 20
8.999999999999943
 30
0.0
 11
44.61444226151581
 21
9.0
 31
0.0
  0
LINE
  8
ITEM_50
  5
62
 10
25.38555773848565
 20
9.0
 30
0.0
 11
28.6754446796657
 21
9.0
 31
0.0
  0
CIRCLE
  8
ITEM_50
  5
63
 10
55.00000000000093
 20
38.0000000000009
 30
0.0
 40
3.101244003957148
  0
CIRCLE
  8
ITEM_50
  5
64
 10
55.00000000000093
 20
38.0000000000009
 30
0.0
 40
7.0
  0
LINE
  8
ITEM_50
  5
65
 10
52.50000000000064
 20
39.44337567297475
 30
0.0
 11
52.50000000000121
 21
36.55662432702706
 31
0.0
  0
LINE
  8
ITEM_50
  5
66
 10
55.00000000000093
 20
40.88675134594916
 30
0.0
 11
52.50000000000064
 21
39.44337567297475
 31
0.0
  0
LINE
  8
ITEM_50
  5
67
 10
57.50000000000093
 20
39.4433756729756
 30
0.0
 11
55.00000000000093
 21
40.88675134594916
 31
0.0
  0
LINE
  8
ITEM_50
  5
68
 10
57.50000000000093
 20
36.55662432702706
 30
0.0
 11
57.50000000000093
 21
39.4433756729756
 31
0.0
  0
LINE
  8
ITEM_50
  5
69
 10
55.00000000000121
 20
35.11324865405293
 30
0.0
 11
57.50000000000093
 21
36.55662432702706
 31
0.0
  0
LINE
  8
ITEM_50
  5
6A
 10
52.50000000000121
 20
36.55662432702706
 30
0.0
 11
55.00000000000121
 21
35.11324865405293
 31
0.0
  0
ARC
  8
ITEM_50
  5
6B
 10
35.00000000000104
 20
6.250000000001023
 30
0.0
 40
9.999999999999928
 50
0.0
 51
180.0
  0
ARC
  8
ITEM_50
  5
6C
 10
35.00000000000098
 20
6.0
 30
0.0
 40
7.0
 50
25.37693352514667
 51
154.6230664748531
  0
POINT
  8
ITEM_HILFE
  5
6D
 10
16.99999999999999
 20
58.0
 30
0.0
  0
POINT
  8
ITEM_HILFE
  5
6E
 10
75.0
 20
58.0
 30
0.0
  0
POINT
  8
ITEM_HILFE
  5
6F
 10
75.0
 20
0.0
 30
0.0
  0
POINT
  8
ITEM_HILFE
  5
70
 10
16.99999999999998
 20
0.0
 30
0.0
  0
POINT
  8
ITEM_HILFE
  5
71
 10
35.00000000000098
 20
6.0
 30
0.0
  0
ENDSEC
  0
EOF
